ISO-10303-21;
HEADER;
FILE_DESCRIPTION((''),'2;1');
FILE_NAME('FF90193-01','2008-08-26T',('E5251014'),('Eaton Hydraulics Inc.'),
'PRO/ENGINEER BY PARAMETRIC TECHNOLOGY CORPORATION, 2005170',
'PRO/ENGINEER BY PARAMETRIC TECHNOLOGY CORPORATION, 2005170','');
FILE_SCHEMA(('CONFIG_CONTROL_DESIGN'));
ENDSEC;
DATA;
#1=CARTESIAN_POINT('',(0.E0,0.E0,0.E0));
#2=DIRECTION('',(-1.E0,0.E0,0.E0));
#3=DIRECTION('',(0.E0,1.E0,0.E0));
#4=AXIS2_PLACEMENT_3D('',#1,#2,#3);
#6=CARTESIAN_POINT('',(0.E0,0.E0,0.E0));
#7=DIRECTION('',(-1.E0,0.E0,0.E0));
#8=DIRECTION('',(0.E0,-1.E0,0.E0));
#9=AXIS2_PLACEMENT_3D('',#6,#7,#8);
#11=CARTESIAN_POINT('',(1.5E0,7.15E0,0.E0));
#12=DIRECTION('',(0.E0,0.E0,-1.E0));
#13=DIRECTION('',(-1.E0,0.E0,0.E0));
#14=AXIS2_PLACEMENT_3D('',#11,#12,#13);
#16=CARTESIAN_POINT('',(1.5E0,-7.15E0,0.E0));
#17=DIRECTION('',(0.E0,0.E0,1.E0));
#18=DIRECTION('',(-1.E0,0.E0,0.E0));
#19=AXIS2_PLACEMENT_3D('',#16,#17,#18);
#21=CARTESIAN_POINT('',(1.5E0,0.E0,0.E0));
#22=DIRECTION('',(-1.E0,0.E0,0.E0));
#23=DIRECTION('',(0.E0,-1.E0,0.E0));
#24=AXIS2_PLACEMENT_3D('',#21,#22,#23);
#26=DIRECTION('',(1.E0,0.E0,-1.615519413785E-12));
#27=VECTOR('',#26,1.96E1);
#28=CARTESIAN_POINT('',(1.5E0,8.65E0,3.166312122568E-11));
#29=LINE('',#28,#27);
#30=CARTESIAN_POINT('',(1.5E0,0.E0,0.E0));
#31=DIRECTION('',(-1.E0,0.E0,0.E0));
#32=DIRECTION('',(0.E0,1.E0,0.E0));
#33=AXIS2_PLACEMENT_3D('',#30,#31,#32);
#35=DIRECTION('',(1.E0,0.E0,1.615363053335E-12));
#36=VECTOR('',#35,1.96E1);
#37=CARTESIAN_POINT('',(1.5E0,-8.65E0,-3.166005656087E-11));
#38=LINE('',#37,#36);
#39=CARTESIAN_POINT('',(2.11E1,0.E0,0.E0));
#40=DIRECTION('',(1.E0,0.E0,0.E0));
#41=DIRECTION('',(0.E0,-1.E0,0.E0));
#42=AXIS2_PLACEMENT_3D('',#39,#40,#41);
#44=CARTESIAN_POINT('',(2.11E1,0.E0,0.E0));
#45=DIRECTION('',(1.E0,0.E0,0.E0));
#46=DIRECTION('',(0.E0,1.E0,0.E0));
#47=AXIS2_PLACEMENT_3D('',#44,#45,#46);
#49=CARTESIAN_POINT('',(2.11E1,0.E0,0.E0));
#50=DIRECTION('',(1.E0,0.E0,0.E0));
#51=DIRECTION('',(0.E0,0.E0,-1.E0));
#52=AXIS2_PLACEMENT_3D('',#49,#50,#51);
#54=CARTESIAN_POINT('',(2.11E1,0.E0,0.E0));
#55=DIRECTION('',(1.E0,0.E0,0.E0));
#56=DIRECTION('',(0.E0,0.E0,1.E0));
#57=AXIS2_PLACEMENT_3D('',#54,#55,#56);
#59=DIRECTION('',(-1.E0,0.E0,0.E0));
#60=VECTOR('',#59,1.7E1);
#61=CARTESIAN_POINT('',(2.11E1,0.E0,-5.E0));
#62=LINE('',#61,#60);
#63=DIRECTION('',(-1.E0,0.E0,0.E0));
#64=VECTOR('',#63,1.7E1);
#65=CARTESIAN_POINT('',(2.11E1,0.E0,5.E0));
#66=LINE('',#65,#64);
#67=CARTESIAN_POINT('',(4.1E0,0.E0,0.E0));
#68=DIRECTION('',(1.E0,0.E0,0.E0));
#69=DIRECTION('',(0.E0,0.E0,-1.E0));
#70=AXIS2_PLACEMENT_3D('',#67,#68,#69);
#72=CARTESIAN_POINT('',(4.1E0,0.E0,0.E0));
#73=DIRECTION('',(1.E0,0.E0,0.E0));
#74=DIRECTION('',(0.E0,0.E0,1.E0));
#75=AXIS2_PLACEMENT_3D('',#72,#73,#74);
#77=CARTESIAN_POINT('',(2.11E1,-8.65E0,0.E0));
#78=CARTESIAN_POINT('',(2.11E1,8.65E0,0.E0));
#79=VERTEX_POINT('',#77);
#80=VERTEX_POINT('',#78);
#81=CARTESIAN_POINT('',(0.E0,7.149999990133E0,0.E0));
#82=CARTESIAN_POINT('',(0.E0,-7.149999990133E0,0.E0));
#83=VERTEX_POINT('',#81);
#84=VERTEX_POINT('',#82);
#85=CARTESIAN_POINT('',(1.5E0,8.65E0,0.E0));
#86=CARTESIAN_POINT('',(1.5E0,-8.65E0,0.E0));
#87=VERTEX_POINT('',#85);
#88=VERTEX_POINT('',#86);
#89=CARTESIAN_POINT('',(4.1E0,0.E0,-5.E0));
#90=CARTESIAN_POINT('',(4.1E0,0.E0,5.E0));
#91=VERTEX_POINT('',#89);
#92=VERTEX_POINT('',#90);
#93=CARTESIAN_POINT('',(2.11E1,0.E0,-5.E0));
#94=CARTESIAN_POINT('',(2.11E1,0.E0,5.E0));
#95=VERTEX_POINT('',#93);
#96=VERTEX_POINT('',#94);
#97=CARTESIAN_POINT('',(0.E0,0.E0,0.E0));
#98=DIRECTION('',(1.E0,0.E0,0.E0));
#99=DIRECTION('',(0.E0,-1.E0,0.E0));
#100=AXIS2_PLACEMENT_3D('',#97,#98,#99);
#101=PLANE('',#100);
#103=ORIENTED_EDGE('',*,*,#102,.F.);
#105=ORIENTED_EDGE('',*,*,#104,.F.);
#106=EDGE_LOOP('',(#103,#105));
#107=FACE_OUTER_BOUND('',#106,.F.);
#108=ADVANCED_FACE('',(#107),#101,.F.);
#109=CARTESIAN_POINT('',(1.5E0,0.E0,0.E0));
#110=DIRECTION('',(1.E0,0.E0,0.E0));
#111=DIRECTION('',(0.E0,9.999667216183E-1,8.158164983647E-3));
#112=AXIS2_PLACEMENT_3D('',#109,#110,#111);
#113=TOROIDAL_SURFACE('',#112,7.15E0,1.5E0);
#114=ORIENTED_EDGE('',*,*,#102,.T.);
#116=ORIENTED_EDGE('',*,*,#115,.T.);
#118=ORIENTED_EDGE('',*,*,#117,.F.);
#120=ORIENTED_EDGE('',*,*,#119,.F.);
#121=EDGE_LOOP('',(#114,#116,#118,#120));
#122=FACE_OUTER_BOUND('',#121,.F.);
#123=ADVANCED_FACE('',(#122),#113,.T.);
#124=CARTESIAN_POINT('',(1.5E0,0.E0,0.E0));
#125=DIRECTION('',(1.E0,0.E0,0.E0));
#126=DIRECTION('',(0.E0,-9.999667216183E-1,-8.158164983647E-3));
#127=AXIS2_PLACEMENT_3D('',#124,#125,#126);
#128=TOROIDAL_SURFACE('',#127,7.15E0,1.5E0);
#129=ORIENTED_EDGE('',*,*,#104,.T.);
#130=ORIENTED_EDGE('',*,*,#119,.T.);
#132=ORIENTED_EDGE('',*,*,#131,.F.);
#133=ORIENTED_EDGE('',*,*,#115,.F.);
#134=EDGE_LOOP('',(#129,#130,#132,#133));
#135=FACE_OUTER_BOUND('',#134,.F.);
#136=ADVANCED_FACE('',(#135),#128,.T.);
#137=CARTESIAN_POINT('',(0.E0,0.E0,0.E0));
#138=DIRECTION('',(1.E0,0.E0,0.E0));
#139=DIRECTION('',(0.E0,-1.E0,0.E0));
#140=AXIS2_PLACEMENT_3D('',#137,#138,#139);
#141=CYLINDRICAL_SURFACE('',#140,8.65E0);
#142=ORIENTED_EDGE('',*,*,#131,.T.);
#144=ORIENTED_EDGE('',*,*,#143,.T.);
#146=ORIENTED_EDGE('',*,*,#145,.T.);
#148=ORIENTED_EDGE('',*,*,#147,.F.);
#149=EDGE_LOOP('',(#142,#144,#146,#148));
#150=FACE_OUTER_BOUND('',#149,.F.);
#151=ADVANCED_FACE('',(#150),#141,.T.);
#152=CARTESIAN_POINT('',(0.E0,0.E0,0.E0));
#153=DIRECTION('',(1.E0,0.E0,0.E0));
#154=DIRECTION('',(0.E0,-1.E0,0.E0));
#155=AXIS2_PLACEMENT_3D('',#152,#153,#154);
#156=CYLINDRICAL_SURFACE('',#155,8.65E0);
#157=ORIENTED_EDGE('',*,*,#117,.T.);
#158=ORIENTED_EDGE('',*,*,#147,.T.);
#160=ORIENTED_EDGE('',*,*,#159,.T.);
#161=ORIENTED_EDGE('',*,*,#143,.F.);
#162=EDGE_LOOP('',(#157,#158,#160,#161));
#163=FACE_OUTER_BOUND('',#162,.F.);
#164=ADVANCED_FACE('',(#163),#156,.T.);
#165=CARTESIAN_POINT('',(2.11E1,0.E0,0.E0));
#166=DIRECTION('',(1.E0,0.E0,0.E0));
#167=DIRECTION('',(0.E0,-1.E0,0.E0));
#168=AXIS2_PLACEMENT_3D('',#165,#166,#167);
#169=PLANE('',#168);
#170=ORIENTED_EDGE('',*,*,#159,.F.);
#171=ORIENTED_EDGE('',*,*,#145,.F.);
#172=EDGE_LOOP('',(#170,#171));
#173=FACE_OUTER_BOUND('',#172,.F.);
#175=ORIENTED_EDGE('',*,*,#174,.T.);
#177=ORIENTED_EDGE('',*,*,#176,.T.);
#178=EDGE_LOOP('',(#175,#177));
#179=FACE_BOUND('',#178,.F.);
#180=ADVANCED_FACE('',(#173,#179),#169,.T.);
#181=CARTESIAN_POINT('',(2.11E1,0.E0,0.E0));
#182=DIRECTION('',(1.E0,0.E0,0.E0));
#183=DIRECTION('',(0.E0,0.E0,-1.E0));
#184=AXIS2_PLACEMENT_3D('',#181,#182,#183);
#185=CYLINDRICAL_SURFACE('',#184,5.E0);
#186=ORIENTED_EDGE('',*,*,#174,.F.);
#188=ORIENTED_EDGE('',*,*,#187,.T.);
#190=ORIENTED_EDGE('',*,*,#189,.T.);
#192=ORIENTED_EDGE('',*,*,#191,.F.);
#193=EDGE_LOOP('',(#186,#188,#190,#192));
#194=FACE_OUTER_BOUND('',#193,.F.);
#195=ADVANCED_FACE('',(#194),#185,.F.);
#196=CARTESIAN_POINT('',(2.11E1,0.E0,0.E0));
#197=DIRECTION('',(1.E0,0.E0,0.E0));
#198=DIRECTION('',(0.E0,0.E0,-1.E0));
#199=AXIS2_PLACEMENT_3D('',#196,#197,#198);
#200=CYLINDRICAL_SURFACE('',#199,5.E0);
#201=ORIENTED_EDGE('',*,*,#176,.F.);
#202=ORIENTED_EDGE('',*,*,#191,.T.);
#204=ORIENTED_EDGE('',*,*,#203,.T.);
#205=ORIENTED_EDGE('',*,*,#187,.F.);
#206=EDGE_LOOP('',(#201,#202,#204,#205));
#207=FACE_OUTER_BOUND('',#206,.F.);
#208=ADVANCED_FACE('',(#207),#200,.F.);
#209=CARTESIAN_POINT('',(4.1E0,0.E0,0.E0));
#210=DIRECTION('',(1.E0,0.E0,0.E0));
#211=DIRECTION('',(0.E0,0.E0,-1.E0));
#212=AXIS2_PLACEMENT_3D('',#209,#210,#211);
#213=PLANE('',#212);
#214=ORIENTED_EDGE('',*,*,#189,.F.);
#215=ORIENTED_EDGE('',*,*,#203,.F.);
#216=EDGE_LOOP('',(#214,#215));
#217=FACE_OUTER_BOUND('',#216,.F.);
#218=ADVANCED_FACE('',(#217),#213,.T.);
#219=CLOSED_SHELL('',(#108,#123,#136,#151,#164,#180,#195,#208,#218));
#220=MANIFOLD_SOLID_BREP('',#219);
#221=(LENGTH_UNIT()NAMED_UNIT(*)SI_UNIT(.MILLI.,.METRE.));
#222=DIMENSIONAL_EXPONENTS(0.E0,0.E0,0.E0,0.E0,0.E0,0.E0,0.E0);
#223=(NAMED_UNIT(*)PLANE_ANGLE_UNIT()SI_UNIT($,.RADIAN.));
#224=PLANE_ANGLE_MEASURE_WITH_UNIT(PLANE_ANGLE_MEASURE(1.745329251994E-2),#223);
#225=(CONVERSION_BASED_UNIT('DEGREE',#224)NAMED_UNIT(#222)PLANE_ANGLE_UNIT());
#226=(NAMED_UNIT(*)SI_UNIT($,.STERADIAN.)SOLID_ANGLE_UNIT());
#227=UNCERTAINTY_MEASURE_WITH_UNIT(LENGTH_MEASURE(3.230644670139E-3),#221,
'closure',
'Maximum model space distance between geometric entities at asserted connectivities');
#228=(GEOMETRIC_REPRESENTATION_CONTEXT(3)GLOBAL_UNCERTAINTY_ASSIGNED_CONTEXT((
#227))GLOBAL_UNIT_ASSIGNED_CONTEXT((#221,#225,#226))REPRESENTATION_CONTEXT
('ID1','3'));
#230=APPLICATION_CONTEXT(
'CONFIGURATION CONTROLLED 3D DESIGNS OF MECHANICAL PARTS AND ASSEMBLIES');
#231=APPLICATION_PROTOCOL_DEFINITION('international standard',
'config_control_design',1994,#230);
#232=DESIGN_CONTEXT('',#230,'design');
#233=MECHANICAL_CONTEXT('',#230,'mechanical');
#234=PRODUCT('FF90193-01','FF90193-01','NOT SPECIFIED',(#233));
#235=PRODUCT_DEFINITION_FORMATION_WITH_SPECIFIED_SOURCE('5','LAST_VERSION',#234,
.MADE.);
#239=PRODUCT_CATEGORY('part','');
#240=PRODUCT_RELATED_PRODUCT_CATEGORY('detail','',(#234));
#241=PRODUCT_CATEGORY_RELATIONSHIP('','',#239,#240);
#242=SECURITY_CLASSIFICATION_LEVEL('unclassified');
#243=SECURITY_CLASSIFICATION('','',#242);
#244=CC_DESIGN_SECURITY_CLASSIFICATION(#243,(#235));
#245=APPROVAL_STATUS('approved');
#246=APPROVAL(#245,'');
#247=CC_DESIGN_APPROVAL(#246,(#243,#235,#236));
#248=CALENDAR_DATE(108,26,8);
#249=COORDINATED_UNIVERSAL_TIME_OFFSET(5,30,.AHEAD.);
#250=LOCAL_TIME(20,6,2.9E1,#249);
#251=DATE_AND_TIME(#248,#250);
#252=APPROVAL_DATE_TIME(#251,#246);
#253=DATE_TIME_ROLE('creation_date');
#254=CC_DESIGN_DATE_AND_TIME_ASSIGNMENT(#251,#253,(#236));
#255=DATE_TIME_ROLE('classification_date');
#256=CC_DESIGN_DATE_AND_TIME_ASSIGNMENT(#251,#255,(#243));
#257=PERSON('UNSPECIFIED','UNSPECIFIED',$,$,$,$);
#258=ORGANIZATION('UNSPECIFIED','UNSPECIFIED','UNSPECIFIED');
#259=PERSON_AND_ORGANIZATION(#257,#258);
#260=APPROVAL_ROLE('approver');
#261=APPROVAL_PERSON_ORGANIZATION(#259,#246,#260);
#262=PERSON_AND_ORGANIZATION_ROLE('creator');
#263=CC_DESIGN_PERSON_AND_ORGANIZATION_ASSIGNMENT(#259,#262,(#235,#236));
#264=PERSON_AND_ORGANIZATION_ROLE('design_supplier');
#265=CC_DESIGN_PERSON_AND_ORGANIZATION_ASSIGNMENT(#259,#264,(#235));
#266=PERSON_AND_ORGANIZATION_ROLE('classification_officer');
#267=CC_DESIGN_PERSON_AND_ORGANIZATION_ASSIGNMENT(#259,#266,(#243));
#268=PERSON_AND_ORGANIZATION_ROLE('design_owner');
#269=CC_DESIGN_PERSON_AND_ORGANIZATION_ASSIGNMENT(#259,#268,(#234));
#5=CIRCLE('',#4,7.149999990133E0);
#10=CIRCLE('',#9,7.149999990133E0);
#15=CIRCLE('',#14,1.5E0);
#20=CIRCLE('',#19,1.5E0);
#25=CIRCLE('',#24,8.65E0);
#34=CIRCLE('',#33,8.65E0);
#43=CIRCLE('',#42,8.65E0);
#48=CIRCLE('',#47,8.65E0);
#53=CIRCLE('',#52,5.E0);
#58=CIRCLE('',#57,5.E0);
#71=CIRCLE('',#70,5.E0);
#76=CIRCLE('',#75,5.E0);
#102=EDGE_CURVE('',#83,#84,#5,.T.);
#104=EDGE_CURVE('',#84,#83,#10,.T.);
#115=EDGE_CURVE('',#84,#88,#20,.T.);
#117=EDGE_CURVE('',#87,#88,#34,.T.);
#119=EDGE_CURVE('',#83,#87,#15,.T.);
#131=EDGE_CURVE('',#88,#87,#25,.T.);
#143=EDGE_CURVE('',#87,#80,#29,.T.);
#145=EDGE_CURVE('',#80,#79,#48,.T.);
#147=EDGE_CURVE('',#88,#79,#38,.T.);
#159=EDGE_CURVE('',#79,#80,#43,.T.);
#174=EDGE_CURVE('',#95,#96,#53,.T.);
#176=EDGE_CURVE('',#96,#95,#58,.T.);
#187=EDGE_CURVE('',#95,#91,#62,.T.);
#189=EDGE_CURVE('',#91,#92,#71,.T.);
#191=EDGE_CURVE('',#96,#92,#66,.T.);
#203=EDGE_CURVE('',#92,#91,#76,.T.);
#229=ADVANCED_BREP_SHAPE_REPRESENTATION('',(#220),#228);
#236=PRODUCT_DEFINITION('design','',#235,#232);
#237=PRODUCT_DEFINITION_SHAPE('','SHAPE FOR FF90193-01.',#236);
#238=SHAPE_DEFINITION_REPRESENTATION(#237,#229);
ENDSEC;
END-ISO-10303-21;
